ISO-10303-21;
HEADER;
/* Generated by software containing ST-Developer
 * from STEP Tools, Inc. (www.steptools.com) 
 */

FILE_DESCRIPTION(
/* description */ (''),
/* implementation_level */ '2;1');

FILE_NAME(
/* name */ 'VS034.stp',
/* time_stamp */ '2023-11-06T08:43:33+09:00',
/* author */ ('YSH'),
/* organization */ (''),
/* preprocessor_version */ 'ST-DEVELOPER v19.2',
/* originating_system */ 'Autodesk Inventor 2024',
/* authorisation */ '');

FILE_SCHEMA (('AUTOMOTIVE_DESIGN { 1 0 10303 214 3 1 1 }'));
ENDSEC;

DATA;
#10=MECHANICAL_DESIGN_GEOMETRIC_PRESENTATION_REPRESENTATION('',(#13),#417);
#11=SHAPE_REPRESENTATION_RELATIONSHIP('SRR','None',#424,#12);
#12=ADVANCED_BREP_SHAPE_REPRESENTATION('',(#14),#416);
#13=STYLED_ITEM('',(#433),#14);
#14=MANIFOLD_SOLID_BREP('\X2\C194B9ACB4DC\X0\1',#216);
#15=CYLINDRICAL_SURFACE('',#252,4.7625);
#16=CYLINDRICAL_SURFACE('',#261,9.525);
#17=CYLINDRICAL_SURFACE('',#262,3.4585);
#18=CYLINDRICAL_SURFACE('',#268,5.);
#19=CYLINDRICAL_SURFACE('',#269,5.2625);
#20=LINE('',#367,#27);
#21=LINE('',#377,#28);
#22=LINE('',#391,#29);
#23=LINE('',#396,#30);
#24=LINE('',#403,#31);
#25=LINE('',#405,#32);
#26=LINE('',#410,#33);
#27=VECTOR('',#292,8.2625);
#28=VECTOR('',#305,4.7625);
#29=VECTOR('',#324,9.525);
#30=VECTOR('',#329,3.4585);
#31=VECTOR('',#338,2.5);
#32=VECTOR('',#341,5.);
#33=VECTOR('',#346,5.2625);
#34=CONICAL_SURFACE('',#246,8.2625,0.0785398163397449);
#35=CONICAL_SURFACE('',#266,2.5,1.02974425867665);
#36=FACE_BOUND('',#60,.T.);
#37=FACE_BOUND('',#66,.T.);
#38=FACE_BOUND('',#73,.T.);
#39=FACE_BOUND('',#75,.T.);
#40=PLANE('',#244);
#41=PLANE('',#259);
#42=PLANE('',#272);
#43=PLANE('',#273);
#44=FACE_OUTER_BOUND('',#58,.T.);
#45=FACE_OUTER_BOUND('',#59,.T.);
#46=FACE_OUTER_BOUND('',#61,.T.);
#47=FACE_OUTER_BOUND('',#62,.T.);
#48=FACE_OUTER_BOUND('',#63,.T.);
#49=FACE_OUTER_BOUND('',#64,.T.);
#50=FACE_OUTER_BOUND('',#65,.T.);
#51=FACE_OUTER_BOUND('',#67,.T.);
#52=FACE_OUTER_BOUND('',#68,.T.);
#53=FACE_OUTER_BOUND('',#69,.T.);
#54=FACE_OUTER_BOUND('',#70,.T.);
#55=FACE_OUTER_BOUND('',#71,.T.);
#56=FACE_OUTER_BOUND('',#72,.T.);
#57=FACE_OUTER_BOUND('',#74,.T.);
#58=EDGE_LOOP('',(#143,#144,#145,#146,#147));
#59=EDGE_LOOP('',(#148));
#60=EDGE_LOOP('',(#149));
#61=EDGE_LOOP('',(#150,#151,#152,#153,#154));
#62=EDGE_LOOP('',(#155,#156,#157,#158,#159));
#63=EDGE_LOOP('',(#160,#161,#162,#163,#164));
#64=EDGE_LOOP('',(#165,#166,#167,#168,#169));
#65=EDGE_LOOP('',(#170));
#66=EDGE_LOOP('',(#171));
#67=EDGE_LOOP('',(#172,#173,#174,#175,#176));
#68=EDGE_LOOP('',(#177,#178,#179,#180,#181));
#69=EDGE_LOOP('',(#182,#183,#184,#185,#186));
#70=EDGE_LOOP('',(#187,#188,#189,#190));
#71=EDGE_LOOP('',(#191,#192,#193,#194));
#72=EDGE_LOOP('',(#195));
#73=EDGE_LOOP('',(#196));
#74=EDGE_LOOP('',(#197));
#75=EDGE_LOOP('',(#198));
#76=CIRCLE('',#240,6.5378047541709);
#77=CIRCLE('',#241,0.5);
#78=CIRCLE('',#242,7.03626342103746);
#79=CIRCLE('',#243,7.03626342103746);
#80=CIRCLE('',#245,5.7625);
#81=CIRCLE('',#247,9.525);
#82=CIRCLE('',#249,4.7625);
#83=CIRCLE('',#250,4.7625);
#84=CIRCLE('',#251,1.);
#85=CIRCLE('',#253,4.7625);
#86=CIRCLE('',#255,9.525);
#87=CIRCLE('',#256,9.525);
#88=CIRCLE('',#257,1.);
#89=CIRCLE('',#258,8.525);
#90=CIRCLE('',#260,5.);
#91=CIRCLE('',#263,3.4585);
#92=CIRCLE('',#264,3.4585);
#93=CIRCLE('',#265,3.4585);
#94=CIRCLE('',#267,5.);
#95=CIRCLE('',#270,5.2625);
#96=CIRCLE('',#271,5.2625);
#97=VERTEX_POINT('',#355);
#98=VERTEX_POINT('',#357);
#99=VERTEX_POINT('',#359);
#100=VERTEX_POINT('',#363);
#101=VERTEX_POINT('',#366);
#102=VERTEX_POINT('',#370);
#103=VERTEX_POINT('',#371);
#104=VERTEX_POINT('',#376);
#105=VERTEX_POINT('',#380);
#106=VERTEX_POINT('',#381);
#107=VERTEX_POINT('',#384);
#108=VERTEX_POINT('',#388);
#109=VERTEX_POINT('',#393);
#110=VERTEX_POINT('',#395);
#111=VERTEX_POINT('',#397);
#112=VERTEX_POINT('',#401);
#113=VERTEX_POINT('',#407);
#114=VERTEX_POINT('',#409);
#115=EDGE_CURVE('',#97,#97,#76,.T.);
#116=EDGE_CURVE('',#97,#98,#77,.T.);
#117=EDGE_CURVE('',#98,#99,#78,.T.);
#118=EDGE_CURVE('',#99,#98,#79,.T.);
#119=EDGE_CURVE('',#100,#100,#80,.T.);
#120=EDGE_CURVE('',#99,#101,#20,.T.);
#121=EDGE_CURVE('',#101,#101,#81,.T.);
#122=EDGE_CURVE('',#102,#103,#82,.T.);
#123=EDGE_CURVE('',#103,#102,#83,.T.);
#124=EDGE_CURVE('',#102,#100,#84,.T.);
#125=EDGE_CURVE('',#103,#104,#21,.T.);
#126=EDGE_CURVE('',#104,#104,#85,.T.);
#127=EDGE_CURVE('',#105,#106,#86,.T.);
#128=EDGE_CURVE('',#106,#105,#87,.T.);
#129=EDGE_CURVE('',#105,#107,#88,.T.);
#130=EDGE_CURVE('',#107,#107,#89,.T.);
#131=EDGE_CURVE('',#108,#108,#90,.T.);
#132=EDGE_CURVE('',#101,#106,#22,.T.);
#133=EDGE_CURVE('',#109,#109,#91,.T.);
#134=EDGE_CURVE('',#109,#110,#23,.T.);
#135=EDGE_CURVE('',#111,#110,#92,.T.);
#136=EDGE_CURVE('',#110,#111,#93,.T.);
#137=EDGE_CURVE('',#112,#112,#94,.T.);
#138=EDGE_CURVE('',#112,#111,#24,.T.);
#139=EDGE_CURVE('',#108,#112,#25,.T.);
#140=EDGE_CURVE('',#113,#113,#95,.T.);
#141=EDGE_CURVE('',#113,#114,#26,.T.);
#142=EDGE_CURVE('',#114,#114,#96,.T.);
#143=ORIENTED_EDGE('',*,*,#115,.T.);
#144=ORIENTED_EDGE('',*,*,#116,.T.);
#145=ORIENTED_EDGE('',*,*,#117,.T.);
#146=ORIENTED_EDGE('',*,*,#118,.T.);
#147=ORIENTED_EDGE('',*,*,#116,.F.);
#148=ORIENTED_EDGE('',*,*,#115,.F.);
#149=ORIENTED_EDGE('',*,*,#119,.F.);
#150=ORIENTED_EDGE('',*,*,#118,.F.);
#151=ORIENTED_EDGE('',*,*,#120,.T.);
#152=ORIENTED_EDGE('',*,*,#121,.T.);
#153=ORIENTED_EDGE('',*,*,#120,.F.);
#154=ORIENTED_EDGE('',*,*,#117,.F.);
#155=ORIENTED_EDGE('',*,*,#122,.T.);
#156=ORIENTED_EDGE('',*,*,#123,.T.);
#157=ORIENTED_EDGE('',*,*,#124,.T.);
#158=ORIENTED_EDGE('',*,*,#119,.T.);
#159=ORIENTED_EDGE('',*,*,#124,.F.);
#160=ORIENTED_EDGE('',*,*,#122,.F.);
#161=ORIENTED_EDGE('',*,*,#123,.F.);
#162=ORIENTED_EDGE('',*,*,#125,.T.);
#163=ORIENTED_EDGE('',*,*,#126,.F.);
#164=ORIENTED_EDGE('',*,*,#125,.F.);
#165=ORIENTED_EDGE('',*,*,#127,.T.);
#166=ORIENTED_EDGE('',*,*,#128,.T.);
#167=ORIENTED_EDGE('',*,*,#129,.T.);
#168=ORIENTED_EDGE('',*,*,#130,.T.);
#169=ORIENTED_EDGE('',*,*,#129,.F.);
#170=ORIENTED_EDGE('',*,*,#130,.F.);
#171=ORIENTED_EDGE('',*,*,#131,.T.);
#172=ORIENTED_EDGE('',*,*,#121,.F.);
#173=ORIENTED_EDGE('',*,*,#132,.T.);
#174=ORIENTED_EDGE('',*,*,#127,.F.);
#175=ORIENTED_EDGE('',*,*,#128,.F.);
#176=ORIENTED_EDGE('',*,*,#132,.F.);
#177=ORIENTED_EDGE('',*,*,#133,.F.);
#178=ORIENTED_EDGE('',*,*,#134,.T.);
#179=ORIENTED_EDGE('',*,*,#135,.F.);
#180=ORIENTED_EDGE('',*,*,#136,.F.);
#181=ORIENTED_EDGE('',*,*,#134,.F.);
#182=ORIENTED_EDGE('',*,*,#137,.T.);
#183=ORIENTED_EDGE('',*,*,#138,.T.);
#184=ORIENTED_EDGE('',*,*,#135,.T.);
#185=ORIENTED_EDGE('',*,*,#136,.T.);
#186=ORIENTED_EDGE('',*,*,#138,.F.);
#187=ORIENTED_EDGE('',*,*,#131,.F.);
#188=ORIENTED_EDGE('',*,*,#139,.T.);
#189=ORIENTED_EDGE('',*,*,#137,.F.);
#190=ORIENTED_EDGE('',*,*,#139,.F.);
#191=ORIENTED_EDGE('',*,*,#140,.T.);
#192=ORIENTED_EDGE('',*,*,#141,.T.);
#193=ORIENTED_EDGE('',*,*,#142,.F.);
#194=ORIENTED_EDGE('',*,*,#141,.F.);
#195=ORIENTED_EDGE('',*,*,#142,.T.);
#196=ORIENTED_EDGE('',*,*,#133,.T.);
#197=ORIENTED_EDGE('',*,*,#140,.F.);
#198=ORIENTED_EDGE('',*,*,#126,.T.);
#199=TOROIDAL_SURFACE('',#239,6.5378047541709,0.5);
#200=TOROIDAL_SURFACE('',#248,5.7625,1.);
#201=TOROIDAL_SURFACE('',#254,8.525,1.);
#202=ADVANCED_FACE('',(#44),#199,.T.);
#203=ADVANCED_FACE('',(#45,#36),#40,.T.);
#204=ADVANCED_FACE('',(#46),#34,.T.);
#205=ADVANCED_FACE('',(#47),#200,.T.);
#206=ADVANCED_FACE('',(#48),#15,.F.);
#207=ADVANCED_FACE('',(#49),#201,.T.);
#208=ADVANCED_FACE('',(#50,#37),#41,.T.);
#209=ADVANCED_FACE('',(#51),#16,.T.);
#210=ADVANCED_FACE('',(#52),#17,.F.);
#211=ADVANCED_FACE('',(#53),#35,.F.);
#212=ADVANCED_FACE('',(#54),#18,.F.);
#213=ADVANCED_FACE('',(#55),#19,.F.);
#214=ADVANCED_FACE('',(#56,#38),#42,.T.);
#215=ADVANCED_FACE('',(#57,#39),#43,.T.);
#216=CLOSED_SHELL('',(#202,#203,#204,#205,#206,#207,#208,#209,#210,#211,
#212,#213,#214,#215));
#217=DERIVED_UNIT_ELEMENT(#220,1.);
#218=DERIVED_UNIT_ELEMENT(#419,-3.);
#219=DIMENSIONAL_EXPONENTS(0.,1.,0.,0.,0.,0.,0.);
#220=(
CONVERSION_BASED_UNIT('gram',#222)
MASS_UNIT()
NAMED_UNIT(#219)
);
#221=(
MASS_UNIT()
NAMED_UNIT(*)
SI_UNIT(.KILO.,.GRAM.)
);
#222=MASS_MEASURE_WITH_UNIT(MASS_MEASURE(0.001),#221);
#223=DERIVED_UNIT((#217,#218));
#224=MEASURE_REPRESENTATION_ITEM('density measure',
POSITIVE_RATIO_MEASURE(1.),#223);
#225=PROPERTY_DEFINITION_REPRESENTATION(#230,#227);
#226=PROPERTY_DEFINITION_REPRESENTATION(#231,#228);
#227=REPRESENTATION('material name',(#229),#416);
#228=REPRESENTATION('density',(#224),#416);
#229=DESCRIPTIVE_REPRESENTATION_ITEM('\X2\C77CBC18\X0\','\X2\C77CBC18\X0\');
#230=PROPERTY_DEFINITION('material property','material name',#426);
#231=PROPERTY_DEFINITION('material property','density of part',#426);
#232=DATE_TIME_ROLE('creation_date');
#233=APPLIED_DATE_AND_TIME_ASSIGNMENT(#234,#232,(#426));
#234=DATE_AND_TIME(#235,#236);
#235=CALENDAR_DATE(2022,7,9);
#236=LOCAL_TIME(0,0,0.,#237);
#237=COORDINATED_UNIVERSAL_TIME_OFFSET(0,0,.BEHIND.);
#238=AXIS2_PLACEMENT_3D('',#353,#274,#275);
#239=AXIS2_PLACEMENT_3D('',#354,#276,#277);
#240=AXIS2_PLACEMENT_3D('',#356,#278,#279);
#241=AXIS2_PLACEMENT_3D('',#358,#280,#281);
#242=AXIS2_PLACEMENT_3D('',#360,#282,#283);
#243=AXIS2_PLACEMENT_3D('',#361,#284,#285);
#244=AXIS2_PLACEMENT_3D('',#362,#286,#287);
#245=AXIS2_PLACEMENT_3D('',#364,#288,#289);
#246=AXIS2_PLACEMENT_3D('',#365,#290,#291);
#247=AXIS2_PLACEMENT_3D('',#368,#293,#294);
#248=AXIS2_PLACEMENT_3D('',#369,#295,#296);
#249=AXIS2_PLACEMENT_3D('',#372,#297,#298);
#250=AXIS2_PLACEMENT_3D('',#373,#299,#300);
#251=AXIS2_PLACEMENT_3D('',#374,#301,#302);
#252=AXIS2_PLACEMENT_3D('',#375,#303,#304);
#253=AXIS2_PLACEMENT_3D('',#378,#306,#307);
#254=AXIS2_PLACEMENT_3D('',#379,#308,#309);
#255=AXIS2_PLACEMENT_3D('',#382,#310,#311);
#256=AXIS2_PLACEMENT_3D('',#383,#312,#313);
#257=AXIS2_PLACEMENT_3D('',#385,#314,#315);
#258=AXIS2_PLACEMENT_3D('',#386,#316,#317);
#259=AXIS2_PLACEMENT_3D('',#387,#318,#319);
#260=AXIS2_PLACEMENT_3D('',#389,#320,#321);
#261=AXIS2_PLACEMENT_3D('',#390,#322,#323);
#262=AXIS2_PLACEMENT_3D('',#392,#325,#326);
#263=AXIS2_PLACEMENT_3D('',#394,#327,#328);
#264=AXIS2_PLACEMENT_3D('',#398,#330,#331);
#265=AXIS2_PLACEMENT_3D('',#399,#332,#333);
#266=AXIS2_PLACEMENT_3D('',#400,#334,#335);
#267=AXIS2_PLACEMENT_3D('',#402,#336,#337);
#268=AXIS2_PLACEMENT_3D('',#404,#339,#340);
#269=AXIS2_PLACEMENT_3D('',#406,#342,#343);
#270=AXIS2_PLACEMENT_3D('',#408,#344,#345);
#271=AXIS2_PLACEMENT_3D('',#411,#347,#348);
#272=AXIS2_PLACEMENT_3D('',#412,#349,#350);
#273=AXIS2_PLACEMENT_3D('',#413,#351,#352);
#274=DIRECTION('axis',(0.,0.,1.));
#275=DIRECTION('refdir',(1.,0.,0.));
#276=DIRECTION('center_axis',(1.,0.,0.));
#277=DIRECTION('ref_axis',(0.,0.,-1.));
#278=DIRECTION('center_axis',(-1.,0.,0.));
#279=DIRECTION('ref_axis',(0.,-1.,1.83697019872103E-16));
#280=DIRECTION('center_axis',(0.,-1.,-1.22464679914735E-16));
#281=DIRECTION('ref_axis',(0.,-1.22464679914735E-16,1.));
#282=DIRECTION('center_axis',(1.,0.,0.));
#283=DIRECTION('ref_axis',(0.,-1.,3.06161699786838E-17));
#284=DIRECTION('center_axis',(1.,0.,0.));
#285=DIRECTION('ref_axis',(0.,-1.,3.06161699786838E-17));
#286=DIRECTION('center_axis',(1.,0.,0.));
#287=DIRECTION('ref_axis',(0.,0.,-1.));
#288=DIRECTION('center_axis',(1.,0.,0.));
#289=DIRECTION('ref_axis',(0.,-1.,1.83697019872103E-16));
#290=DIRECTION('center_axis',(-1.,0.,0.));
#291=DIRECTION('ref_axis',(0.,1.,0.));
#292=DIRECTION('',(-0.996917333733128,-0.078459095727845,-9.60846804471011E-18));
#293=DIRECTION('center_axis',(1.,0.,0.));
#294=DIRECTION('ref_axis',(0.,0.,-1.));
#295=DIRECTION('center_axis',(1.,0.,0.));
#296=DIRECTION('ref_axis',(0.,0.,-1.));
#297=DIRECTION('center_axis',(-1.,0.,0.));
#298=DIRECTION('ref_axis',(0.,-1.,1.83697019872103E-16));
#299=DIRECTION('center_axis',(-1.,0.,0.));
#300=DIRECTION('ref_axis',(0.,-1.,1.83697019872103E-16));
#301=DIRECTION('center_axis',(0.,-1.,-1.22464679914735E-16));
#302=DIRECTION('ref_axis',(0.,-1.22464679914735E-16,1.));
#303=DIRECTION('center_axis',(1.,0.,0.));
#304=DIRECTION('ref_axis',(0.,1.,0.));
#305=DIRECTION('',(-1.,0.,0.));
#306=DIRECTION('center_axis',(1.,0.,0.));
#307=DIRECTION('ref_axis',(0.,0.,-1.));
#308=DIRECTION('center_axis',(1.,0.,0.));
#309=DIRECTION('ref_axis',(0.,0.,-1.));
#310=DIRECTION('center_axis',(-1.,0.,0.));
#311=DIRECTION('ref_axis',(0.,-1.,1.83697019872103E-16));
#312=DIRECTION('center_axis',(-1.,0.,0.));
#313=DIRECTION('ref_axis',(0.,-1.,1.83697019872103E-16));
#314=DIRECTION('center_axis',(0.,-1.,-1.22464679914735E-16));
#315=DIRECTION('ref_axis',(0.,-1.22464679914735E-16,1.));
#316=DIRECTION('center_axis',(1.,0.,0.));
#317=DIRECTION('ref_axis',(0.,-1.,1.83697019872103E-16));
#318=DIRECTION('center_axis',(-1.,0.,0.));
#319=DIRECTION('ref_axis',(0.,0.,1.));
#320=DIRECTION('center_axis',(1.,0.,0.));
#321=DIRECTION('ref_axis',(0.,0.,1.));
#322=DIRECTION('center_axis',(1.,0.,0.));
#323=DIRECTION('ref_axis',(0.,1.,0.));
#324=DIRECTION('',(-1.,0.,0.));
#325=DIRECTION('center_axis',(1.,0.,0.));
#326=DIRECTION('ref_axis',(0.,0.,-1.));
#327=DIRECTION('center_axis',(-1.,0.,0.));
#328=DIRECTION('ref_axis',(0.,0.,-1.));
#329=DIRECTION('',(-1.,0.,0.));
#330=DIRECTION('center_axis',(1.,0.,0.));
#331=DIRECTION('ref_axis',(0.,0.,-1.));
#332=DIRECTION('center_axis',(1.,0.,0.));
#333=DIRECTION('ref_axis',(0.,0.,-1.));
#334=DIRECTION('center_axis',(-1.,0.,0.));
#335=DIRECTION('ref_axis',(0.,0.,1.));
#336=DIRECTION('center_axis',(-1.,0.,0.));
#337=DIRECTION('ref_axis',(0.,0.,1.));
#338=DIRECTION('',(0.515038074910054,1.04972719113862E-16,0.857167300702112));
#339=DIRECTION('center_axis',(-1.,0.,0.));
#340=DIRECTION('ref_axis',(0.,0.,1.));
#341=DIRECTION('',(1.,0.,0.));
#342=DIRECTION('center_axis',(1.,0.,0.));
#343=DIRECTION('ref_axis',(0.,1.,0.));
#344=DIRECTION('center_axis',(1.,0.,0.));
#345=DIRECTION('ref_axis',(0.,0.,-1.));
#346=DIRECTION('',(-1.,0.,0.));
#347=DIRECTION('center_axis',(1.,0.,0.));
#348=DIRECTION('ref_axis',(0.,0.,-1.));
#349=DIRECTION('center_axis',(1.,0.,0.));
#350=DIRECTION('ref_axis',(0.,0.,-1.));
#351=DIRECTION('center_axis',(-1.,0.,0.));
#352=DIRECTION('ref_axis',(0.,0.,1.));
#353=CARTESIAN_POINT('',(0.,0.,0.));
#354=CARTESIAN_POINT('Origin',(159.5,0.,0.));
#355=CARTESIAN_POINT('',(160.,-8.00650166564574E-16,6.5378047541709));
#356=CARTESIAN_POINT('Origin',(160.,0.,0.));
#357=CARTESIAN_POINT('',(159.539229547864,-8.61693747653113E-16,7.03626342103746));
#358=CARTESIAN_POINT('Origin',(159.5,-8.00650166564574E-16,6.5378047541709));
#359=CARTESIAN_POINT('',(159.539229547864,-7.03626342103746,-8.61693747653113E-16));
#360=CARTESIAN_POINT('Origin',(159.539229547864,0.,-1.07711718456639E-15));
#361=CARTESIAN_POINT('Origin',(159.539229547864,0.,-1.07711718456639E-15));
#362=CARTESIAN_POINT('Origin',(160.,4.7625,0.));
#363=CARTESIAN_POINT('',(160.,-7.05702718008662E-16,5.7625));
#364=CARTESIAN_POINT('Origin',(160.,0.,0.));
#365=CARTESIAN_POINT('Origin',(143.958416520579,0.,0.));
#366=CARTESIAN_POINT('',(127.916833041159,-9.525,-1.16647607618785E-15));
#367=CARTESIAN_POINT('',(143.958416520579,-8.2625,-1.0118644177955E-15));
#368=CARTESIAN_POINT('Origin',(127.916833041159,0.,0.));
#369=CARTESIAN_POINT('Origin',(159.,0.,0.));
#370=CARTESIAN_POINT('',(159.,-5.83238038093927E-16,4.7625));
#371=CARTESIAN_POINT('',(159.,-4.7625,-5.83238038093927E-16));
#372=CARTESIAN_POINT('Origin',(159.,0.,0.));
#373=CARTESIAN_POINT('Origin',(159.,0.,0.));
#374=CARTESIAN_POINT('Origin',(159.,-7.05702718008662E-16,5.7625));
#375=CARTESIAN_POINT('Origin',(144.25,0.,0.));
#376=CARTESIAN_POINT('',(128.5,-4.7625,-5.83238038093927E-16));
#377=CARTESIAN_POINT('',(144.25,-4.7625,-5.83238038093927E-16));
#378=CARTESIAN_POINT('Origin',(128.5,0.,0.));
#379=CARTESIAN_POINT('Origin',(0.999999999999996,0.,0.));
#380=CARTESIAN_POINT('',(0.999999999999996,-1.16647607618785E-15,9.525));
#381=CARTESIAN_POINT('',(0.999999999999996,-9.525,-1.16647607618785E-15));
#382=CARTESIAN_POINT('Origin',(0.999999999999996,0.,0.));
#383=CARTESIAN_POINT('Origin',(0.999999999999996,0.,0.));
#384=CARTESIAN_POINT('',(0.,-1.04401139627312E-15,8.525));
#385=CARTESIAN_POINT('Origin',(0.999999999999996,-1.04401139627312E-15,
8.525));
#386=CARTESIAN_POINT('Origin',(0.,0.,0.));
#387=CARTESIAN_POINT('Origin',(0.,9.525,0.));
#388=CARTESIAN_POINT('',(0.,-6.12323399573677E-16,-5.));
#389=CARTESIAN_POINT('Origin',(0.,0.,0.));
#390=CARTESIAN_POINT('Origin',(63.9584165205794,0.,0.));
#391=CARTESIAN_POINT('',(63.9584165205794,-9.525,-1.16647607618785E-15));
#392=CARTESIAN_POINT('Origin',(-45.7522881194592,0.,0.));
#393=CARTESIAN_POINT('',(116.5,-4.23544095485112E-16,3.4585));
#394=CARTESIAN_POINT('Origin',(116.5,0.,0.));
#395=CARTESIAN_POINT('',(102.926226644231,-4.23544095485112E-16,3.4585));
#396=CARTESIAN_POINT('',(-45.7522881194592,-4.23544095485112E-16,3.4585));
#397=CARTESIAN_POINT('',(102.926226644231,-4.23544095485112E-16,-3.4585));
#398=CARTESIAN_POINT('Origin',(102.926226644231,0.,0.));
#399=CARTESIAN_POINT('Origin',(102.926226644231,0.,0.));
#400=CARTESIAN_POINT('Origin',(103.502151547569,0.,0.));
#401=CARTESIAN_POINT('',(102.,-6.12323399573676E-16,-5.));
#402=CARTESIAN_POINT('Origin',(102.,0.,0.));
#403=CARTESIAN_POINT('',(103.502151547569,-3.06161699786838E-16,-2.5));
#404=CARTESIAN_POINT('Origin',(51.,0.,0.));
#405=CARTESIAN_POINT('',(51.,-6.12323399573677E-16,-5.));
#406=CARTESIAN_POINT('Origin',(122.5,0.,0.));
#407=CARTESIAN_POINT('',(128.5,-5.2625,-6.44470378051295E-16));
#408=CARTESIAN_POINT('Origin',(128.5,0.,0.));
#409=CARTESIAN_POINT('',(116.5,-5.2625,-6.44470378051295E-16));
#410=CARTESIAN_POINT('',(122.5,-5.2625,-6.44470378051295E-16));
#411=CARTESIAN_POINT('Origin',(116.5,0.,0.));
#412=CARTESIAN_POINT('Origin',(116.5,5.55111512312578E-15,0.));
#413=CARTESIAN_POINT('Origin',(128.5,5.2625,0.));
#414=UNCERTAINTY_MEASURE_WITH_UNIT(LENGTH_MEASURE(0.01),#418,
'DISTANCE_ACCURACY_VALUE',
'Maximum model space distance between geometric entities at asserted c
onnectivities');
#415=UNCERTAINTY_MEASURE_WITH_UNIT(LENGTH_MEASURE(0.01),#418,
'DISTANCE_ACCURACY_VALUE',
'Maximum model space distance between geometric entities at asserted c
onnectivities');
#416=(
GEOMETRIC_REPRESENTATION_CONTEXT(3)
GLOBAL_UNCERTAINTY_ASSIGNED_CONTEXT((#414))
GLOBAL_UNIT_ASSIGNED_CONTEXT((#418,#420,#421))
REPRESENTATION_CONTEXT('','3D')
);
#417=(
GEOMETRIC_REPRESENTATION_CONTEXT(3)
GLOBAL_UNCERTAINTY_ASSIGNED_CONTEXT((#415))
GLOBAL_UNIT_ASSIGNED_CONTEXT((#418,#420,#421))
REPRESENTATION_CONTEXT('','3D')
);
#418=(
LENGTH_UNIT()
NAMED_UNIT(*)
SI_UNIT(.MILLI.,.METRE.)
);
#419=(
LENGTH_UNIT()
NAMED_UNIT(*)
SI_UNIT(.CENTI.,.METRE.)
);
#420=(
NAMED_UNIT(*)
PLANE_ANGLE_UNIT()
SI_UNIT($,.RADIAN.)
);
#421=(
NAMED_UNIT(*)
SI_UNIT($,.STERADIAN.)
SOLID_ANGLE_UNIT()
);
#422=SHAPE_DEFINITION_REPRESENTATION(#423,#424);
#423=PRODUCT_DEFINITION_SHAPE('',$,#426);
#424=SHAPE_REPRESENTATION('',(#238),#416);
#425=PRODUCT_DEFINITION_CONTEXT('part definition',#430,'design');
#426=PRODUCT_DEFINITION('LO-ST19.05-SFH9.525-160',
'LO-ST19.05-SFH9.525-160',#427,#425);
#427=PRODUCT_DEFINITION_FORMATION('',$,#432);
#428=PRODUCT_RELATED_PRODUCT_CATEGORY('LO-ST19.05-SFH9.525-160',
'LO-ST19.05-SFH9.525-160',(#432));
#429=APPLICATION_PROTOCOL_DEFINITION('international standard',
'automotive_design',2009,#430);
#430=APPLICATION_CONTEXT(
'Core Data for Automotive Mechanical Design Process');
#431=PRODUCT_CONTEXT('part definition',#430,'mechanical');
#432=PRODUCT('LO-ST19.05-SFH9.525-160','LO-ST19.05-SFH9.525-160',$,(#431));
#433=PRESENTATION_STYLE_ASSIGNMENT((#434));
#434=SURFACE_STYLE_USAGE(.BOTH.,#437);
#435=SURFACE_STYLE_RENDERING_WITH_PROPERTIES($,#441,(#436));
#436=SURFACE_STYLE_TRANSPARENT(0.339999973773956);
#437=SURFACE_SIDE_STYLE('',(#438,#435));
#438=SURFACE_STYLE_FILL_AREA(#439);
#439=FILL_AREA_STYLE('',(#440));
#440=FILL_AREA_STYLE_COLOUR('',#441);
#441=COLOUR_RGB('',0.925490196078431,0.945098039215686,0.937254901960784);
ENDSEC;
END-ISO-10303-21;
